Top Acteurs 2.0

Avatar Nathan Rabillard Liste de

1328 personnalités

par Nathan Rabillard

Classement des films par acteur, sans prise en compte des films d'animations, 5 films minimum par acteur. Ils sont classés selon le nombre de films visionnés. De plus les acteurs avec plus de 10 films sont classés dans un Top 10 selon la moyenne des films visionnés.

✔ signifie que j'ai vu le film au cinéma (soit dans les meilleures conditions possibles)

Mes autres listes :
http://www.senscritique.com/liste/Grands_Realisateurs_2_0/774965
https://www.senscritique.com/liste/Top_Actrices_2_0/1605223

Top 15 Acteurs (à partir de 10 films):
1° - Michael Madsen .......... (7,8/10)
2° - Leonardo DiCaprio ...... (7,78/10)
3° - Andy Serkis ................ (7,75/10)
4° - Brian Cox .................... (7,74/10)
5° - Sean Penn ................... (7,73/10)
6° - Clint Eastwood ............ (7,64/10)
7° - Rupert Grint ................ (7,64/10)
8° - Viggo Mortensen ......... (7,62/10)
9° - Al Pacino ......................... (7,53/10)
10° - Orlando Bloom ............. (7,53/10)
11° - David Bradley .............. (7,5/10)
12° - Matthieu Kassovitz ......... (7,5/10)
13° - Jeremy Strong ................... (7,5/10)
13° - Ian Holm ....................... (7,47/10)
14° - Tom Felton ................... (7,45/10)

Flop 15 Acteurs
1° - Ramzy Bédia ................. (3,54/10)
2° - Eric Judor ...................... (3,82/10)
3° - Jean-Michel Lahmi ....... (4,4/10)
4° - José Garcia .................. (4,55/10)
5° - Kad Merad .................... (4,67/10)
6° - Eugene Levy .................. (4,82/10)
7° - Jean-Paul Rouve .......... (4,93/10)
8° - Eriq Ebouaney ............... (5/10)
9° - Johnny Knoxville ........... (5/10)
10° - Seann William Scott ..... (5,07/10)
11° - Christian Clavier ........... (5,08/10)
12° - Etienne Chicot ............. (5,1/10)
13° - Arsène Mosca ............. (5,27/10)
14° - Luke Evans ................ (5,29/10)
15° - Tyrese Gibson .............. (5,3/10)

Trier par : Tri par défaut
  • Tri par défaut
  • Derniers ajouts
  • Ordre alphabétique
Croissant
  • Croissant
  • Décroissant
  • 1 Photo Samuel L. Jackson

    Samuel L. Jackson

    acteur, producteur, artiste musical et préfacier

    Moyenne : 6,79/10
    ----------------------------------------------------------------------------------9/10-------
    1 / Jurassic Park ✔
    2 / Star Wars Episode III : La Revanche des Siths
    3 / Kingsman : Services secrets ✔
    4 / Django Unchained
    5 / Les 8 Salopards ✔
    6 / Kill Bill : Volume 1
    7 / Kill Bill : Volume 2
    ----------------------------------------------------------------------------------8/10-------
    8 / Avengers : Endgame ✔
    9 / Une Journée en Enfer
    10 / Incassable ✔
    11 / Pulp Fiction
    12 / Star Wars Episode I : La Menace Fantôme
    13 / Avengers : Infinity War ✔
    14 /True Romance
    15 / Do The Right Thing
    ----------------------------------------------------------------------------------7/10-------
    16 / Star Wars Episode II : L'Attaque des Clones
    17 /Jackie Brown
    18 / Glass ✔
    19 / Iron Man
    20 / Avengers : L'Ère d'Ultron ✔
    21 / Avengers ✔
    22 / Captain America : Le Soldat de l'Hiver ✔
    23 / Black Snake Moan
    ----------------------------------------------------------------------------------6/10-------
    24 / Spider-Man : Far From Home ✔
    25 / Chambre 1408
    26 / RoboCop
    27 / Double Mise
    28 / Kong : Skull Island ✔
    29 / Captain Marvel ✔
    30 / Jumper
    31 / Captain America : First Avenger ✔
    32 / Un Prince à New-York
    33 / Hitman & Bodyguard
    ----------------------------------------------------------------------------------5/10-------
    34 / Thor ✔
    35 / Iron Man 2
    36 / Miss Peregrine et les Enfants particuliers
    37 / Tarzan
    38 / Des Serpents dans l'Avion
    39 / Oldboy (US)
    40 / Very Bad Cops
    ----------------------------------------------------------------------------------4/10-------
    41 / xXx
    ----------------------------------------------------------------------------------3/10-------
    42 / xXx : The Next Level

    http://www.senscritique.com/top/Les_meilleurs_films_avec_Samuel_L_Jackson/999573
  • 2 Photo Robert De Niro

    Robert De Niro

    acteur, producteur, réalisateur et artiste musical

    Moyenne : 6,98/10
    ---------------------------------------------------------------------------------10/10-------
    1 / Voyage au bout de l'enfer ✔
    ----------------------------------------------------------------------------------9/10-------
    2 / Les Affranchis
    3 / Il était une fois en Amérique
    4 / Casino
    ----------------------------------------------------------------------------------8/10-------
    5 / Heat
    6 / Taxi Driver
    7 / Joker ✔
    8 / Brazil
    9 / Sleepers
    10 / Le Parrain : 2e Partie
    11 / Angel Heart
    12 / Raging Bull
    13 / Les Incorruptibles
    14 / La Valse des Pantins
    ----------------------------------------------------------------------------------7/10-------
    15 / The Irishman
    16 / Jackie Brown
    17 / Les Nerfs à vif
    18 / L'Éveil
    19 / Copland
    20 / 1900
    21 / Happiness Therapy
    22 / Mission
    23 / Machete
    ----------------------------------------------------------------------------------6/10-------
    24 / Mon beau-père et moi
    25 / Limitless
    26 / Hands of Stone
    27 / Public Enemies
    28 / Frankenstein
    29 / Raisons d'état
    30 / Midnight Run
    31 / Stardust - Le Mystère de l'Étoile
    32 / Mon beau-père, mes parents et moi
    33 / American Bluff ✔
    34 / Mean Streets
    35 / Joy ✔
    ----------------------------------------------------------------------------------5/10-------
    36 / Le Fan
    37 / Amsterdam
    38 / Mon beau-père et nous
    39 / Malavita
    40 / Killer Elite

    http://www.senscritique.com/top/Les_meilleurs_films_avec_Robert_de_Niro/999666
  • 3 Photo Brad Pitt

    Brad Pitt

    acteur, producteur, postface et artiste musical

    Moyenne : 7,38/10
    --------------------------------------------------------------------------------10/10-------
    1 / Seven
    ----------------------------------------------------------------------------------9/10-------
    2 / Fight Club
    4 / Thelma et Louise ✔
    ----------------------------------------------------------------------------------8/10-------
    5 / Entretien avec un Vampire
    3 / L'Etrange Histoire de Benjamin Button ✔
    6 / Inglorious Basterds
    7 / Ad Astra ✔
    8 / Once Upon a Time in... Hollywood ✔
    9 / L'Armée des 12 Singes
    10 / Snatch
    11 / L'Assassinat de Jesse James par le lâche Robert Ford
    12 / Et au Milieu coule une Rivière
    13 / The Big Short : Le Casse du siècle
    14 / Sleepers
    15 / 12 Years a Slave
    16 / Troie
    17 / Fury
    18 / True Romance
    19 / Babel
    ----------------------------------------------------------------------------------7/10-------
    20 / Bullet Train ✔
    21 / Dans la Peau de John Malkovich
    22 / World War Z ✔
    23 / Ocean's Twelve
    24 / Ocean's Eleven
    25 / Alliés
    26 / Le Stratège
    27 / Burn After Reading
    28 / Confessions d'un homme dangereux (caméo)
    29 / Légendes d'Automne
    30 / Sept Ans au Tibet
    ----------------------------------------------------------------------------------6/10-------
    31 / Rencontre avec Joe Black
    32 / Ocean's 13
    33 / Deadpool 2 (caméo)
    34 / Mr. & Mrs Smith
    35 / Spy game, jeu d'espions
    36 / Ennemis Rapprochés
    ----------------------------------------------------------------------------------4/10-------
    37 / Cartel

    http://www.senscritique.com/top/Les_meilleurs_films_avec_Brad_Pitt/999644
  • 4 Photo Willem Dafoe

    Willem Dafoe

    acteur, scénariste, producteur et artiste musical

    Moyenne : 6,43/10
    --------------------------------------------------------------------------------8/10-------
    1 / The Northman ✔
    2 / Nightmare Alley ✔
    3 / Spider-Man 2
    4 / Platoon
    5 / Spider-Man
    6 / Inside Man, l'homme de l'intérieur
    7 / Aviator
    8 / Mississippi Burning
    --------------------------------------------------------------------------------7/10-------
    9 / The Grand Budapest Hotel
    10 / Le Patient anglais
    11 / Spider-Man 3
    12 / American Psycho
    13 / Nymphomaniac : Volume 2
    14 / Les Brasiers de la Colère
    15 / La Vie aquatique
    16 / The Lighthouse
    17 / The French Dispatch ✔
    18 / Brooklyn Affairs ✔
    19 / Togo
    20 / The Florida Project
    --------------------------------------------------------------------------------6/10-------
    21 / Spider-Man: No Way Home ✔
    22 / Paris, je t'aime
    23 / eXistenZ
    24 / Zack Snyder's Justice League
    25 / Sailor et Lula
    26 / Le Crime de l'Orient-Express
    27 / Le Chasseur
    28 / Nos étoiles contraires
    ---------------------------------------------------------------------------------5/10-------
    29 / La Grande Muraille
    30 / Aquaman
    31 / Desperado 2 : Il était une fois au Mexique
    32 / John Carter (voix)
    33 / John Wick
    --------------------------------------------------------------------------------3/10-------
    34 / Speed 2 : Cap sur le danger
    35 / XXX 2 : The Next Level

    http://www.senscritique.com/top/Les_meilleurs_films_avec_Willem_Dafoe/999046
  • 5 Photo Matt Damon

    Matt Damon

    acteur, producteur, scénariste, créateur et artiste musical

    Moyenne : 6,68/10
    ----------------------------------------------------------------------------------10/10------
    1 / Interstellar ✔
    ----------------------------------------------------------------------------------9/10-------
    2 / Les Infiltrés
    3 / Il faut sauver le soldat Ryan
    ----------------------------------------------------------------------------------8/10-------
    4 / Will Hunting
    5 / Le Derniel Duel ✔
    6 / La Mémoire dans la peau
    7 / Le Mans 66 ✔
    8 / Seul sur Mars ✔
    9 / La Mort dans la peau
    10 / La Vengeance dans la peau
    11 / True Grit
    ----------------------------------------------------------------------------------7/10-------
    12 / Le Talentueux Mr. Ripley
    13 / Ocean's Twelve
    14 / Ocean's Eleven
    15 / Confessions d'un homme dangereux (caméo)
    16 / Thor : Ragnarok (caméo)
    17 / Les Joueurs
    18 / Invictus
    ----------------------------------------------------------------------------------6/10-------
    19 / Ocean's 13
    20 / Deadpool 2 (caméo)
    21 / Raisons d'état
    22 / Gerry
    23 / Bienvenue à Suburbicon
    24 / Green Zone
    25 / Downsizing
    26 / Deux en un
    ----------------------------------------------------------------------------------5/10-------
    27 / Thor : Love and Thunder (caméo) ✔
    28 / La Grande Muraille
    29 / Elysium
    30 / Jason Bourne
    31 / Sex Trip
    32 / Contagion
    ----------------------------------------------------------------------------------4/10-------
    33 / L'Agence
    34 / Monuments Men

    http://www.senscritique.com/top/Les_meilleurs_films_avec_Matt_Damon/999483
  • 6 Photo Bruce Willis

    Bruce Willis

    acteur, producteur, scénariste et artiste musical

    Moyenne : 6,55/10
    ----------------------------------------------------------------------------------9/10-------
    1 / Piège de Cristal
    ----------------------------------------------------------------------------------8/10-------
    2 / L'Armée des 12 Singes
    3 / Une Journée en Enfer
    4 / Incassable ✔
    5 / Pulp Fiction
    6 / Le Cinquième Elément
    7 / Moonrise Kingdom
    8 / La Mort vous va si bien
    ----------------------------------------------------------------------------------7/10-------
    9 / Sixième Sens
    10 / Brooklyn Affairs ✔
    11 / Looper
    12 / Ocean's Twelve
    13 / Sin City
    14 / Groom Service
    15 / Le Dernier Samaritain
    16 / Split (caméo) ✔
    17 / Glass ✔
    18 / Slevin
    19 / Planète Terreur
    20 / I'm Still Here
    -----------------------------------------------------------------------------------6/10-------
    21 / Sin City : J'ai Tué pour Elle
    22 / 58 Minutes pour Vivre
    23 / Le Bûcher des vanités
    24 / Mon Voisin le Tueur
    25 / 16 Blocs
    26 / Les Larmes du Soleil
    27 / Armaggedon
    ----------------------------------------------------------------------------------5/10-------
    28 / Red
    29 / Clones
    30 / Mon Voisin le Tueur 2
    31 / Die Hard 4 : Retour en Enfer
    ----------------------------------------------------------------------------------4/10-------
    32 / Die Hard : Belle Journée pour Mourir
    33 / Top Cops

    http://www.senscritique.com/top/Les_meilleurs_films_avec_Bruce_Willis/999639
  • 7 Photo Johnny Depp

    Johnny Depp

    acteur, producteur, réalisateur, scénariste, artiste musical et auteur

    Moyenne : 6,55/10
    ----------------------------------------------------------------------------------8/10-------
    1 / Donnie Brasco
    2 / Platoon
    3 / Edward aux mains d'argent
    4 / Pirates des Caraïbes : Le Secret du coffre maudit
    5 / Pirates des Caraïbes : La Malédiction du Black Pearl
    ----------------------------------------------------------------------------------7/10-------
    6 / Sweeney Todd, le diabolique barbier de Fleet Street
    7 / Ed Wood
    8 / Charlie et la Chocolaterie
    9 / 21 Jump Street (caméo)
    10 / Les Animaux fantastiques ✔
    11 / Blow
    12 / Sleepy Hollow, la légende du cavalier sans tête
    13 / Las Vegas Parano
    14 / Gilbert Grape
    15 / Les Griffes de la nuit
    16 / Pirates des Caraïbes : Jusqu'au bout du monde
    ----------------------------------------------------------------------------------6/10-------
    17 / Public Enemies
    18 / Lone Ranger : Naissance d'un héros
    19 / Les Animaux fantastiques : Les Crimes de Grindelwald ✔
    20 / Pirates des Caraïbes : La Vengeance de Salazar ✔
    21 / Pirates des Caraïbes : La Fontaine de Jouvence ✔
    22 / Neverland
    23 / L'Imaginarium du Docteur Parnassus
    24 / Le Crime de l'Orient-Express
    25 / Chocolat
    26 / From Hell
    27 / Alice de l'autre côté du miroir ✔
    ----------------------------------------------------------------------------------5/10-------
    28 / Desperado 2 : Il était une fois au Mexique
    29 / La Fin de Freddy : L'Ultime Cauchemar (caméo)
    30 / Alice au pays des merveilles
    31 / Dark Shadows
    ----------------------------------------------------------------------------------3/10-------
    32 / Into the Woods - Promenons-nous dans les bois

    http://www.senscritique.com/top/Les_meilleurs_films_avec_Johnny_Depp/999621
  • 8 Photo Nicolas Cage

    Nicolas Cage

    acteur, producteur, réalisateur et artiste musical

    Moyenne : 6,06/10
    ----------------------------------------------------------------------------------8/10-------
    1 / Lord of War
    2 / Arizona Junior
    3 / Snake Eyes
    4 / Volte/face
    ----------------------------------------------------------------------------------7/10-------
    5 / Birdy
    6 / Leaving Las Vegas
    7 / 8 mm
    8 / Les Associés
    9 / Kick-Ass
    10 / Mandy
    11 / Snowden
    12 / Windtalkers, les messagers du vent
    13 / Adaptation.
    14 / Les Ailes de l'enfer
    ----------------------------------------------------------------------------------6/10-------
    15 / Cotton Club
    16 / Benjamin Gates et le Trésor des Templiers
    17 / Benjamin Gates et le Livre des secrets
    18 / Sailor et Lula
    19 / Rock
    20 / Pig
    21 / Family Man
    22 / Peggy Sue s'est mariée
    23 / À tombeau ouvert
    24 / Un talent en or massif ✔
    ----------------------------------------------------------------------------------5/10-------
    25 / 60 Secondes Chrono
    26 / The Weather Man
    27 / World Trade Center
    ----------------------------------------------------------------------------------4/10-------
    28 / Ghost Rider
    29 / L'Apprenti Sorcier
    30 / Bangkok Dangerous
    ----------------------------------------------------------------------------------3/10-------
    31 / Prédictions
    ----------------------------------------------------------------------------------2/10-------
    32 / Ghost Rider : L'Esprit de vengeance

    http://www.senscritique.com/top/Les_meilleurs_films_avec_Nicolas_Cage/999665
  • 9 Photo Gérard Depardieu

    Gérard Depardieu

    acteur, producteur, réalisateur, scénariste, auteur et artiste musical

    Moyenne : 6,16/10
    ----------------------------------------------------------------------------------8/10-------
    1 / Astérix et Obélix : Mission Cléopâtre ✔
    2 / Cyrano de Bergerac
    3 / Jean de Florette
    4 / Mesrine : 1ère Partie - L'Instinct de mort
    5 / Illusions perdues ✔
    6 / Les Valseuses
    7 / L'Odysée de Pi
    8 / Hamlet
    ----------------------------------------------------------------------------------7/10-------
    9 / La Môme
    10 / Buffet Froid
    11 / 1900
    12 / À l'origine
    13 / Paris, je t'aime
    ----------------------------------------------------------------------------------6/10-------
    14 / Le Dernier Métro
    15 / 1492 : Christophe Colomb
    16 / Préparez vos mouchoirs
    17 / Bon Voyage
    18 / Vincent, François, Paul et les autres...
    19 / L'Homme au masque de fer
    20 / Astérix et Obélix contre César
    21 / Le Choix des armes
    22 / RRRrrrr !!!
    23 / Inspecteur la Bavure
    24 / Tais-toi !
    ----------------------------------------------------------------------------------5/10-------
    25 / Babylon A.D.
    26 / Sous le soleil de Satan
    27 / Michou d'Auber
    28 / Les Enfants de Timpelbach
    29 / Astérix aux jeux olympiques ✔
    ----------------------------------------------------------------------------------2/10-------
    30 / Astérix et Obélix : Au service de sa Majesté
    31 / Alad'2

    http://www.senscritique.com/top/Les_meilleurs_films_avec_Gerard_Depardieu/999382
  • 10 Photo Liam Neeson

    Liam Neeson

    acteur, réalisateur et artiste musical

    Moyenne : 6,26/10
    ----------------------------------------------------------------------------------9/10-------
    1 / La Liste de Schindler
    ----------------------------------------------------------------------------------8/10-------
    2 / Batman Begins
    3 / The Dark Knight Rises ✔
    4 / Gangs of New York
    5 / Star Wars : Épisode I - La Menace fantôme
    6 / Excalibur ✔
    7 / Quelques minutes après minuit (voix)
    ----------------------------------------------------------------------------------7/10-------
    8 / Taken
    9 / Le Monde de Narnia : Chapitre 1 (voix)
    10 / Mission
    11 / Silence
    12 / La Ballade de Buster Scruggs
    13 / Le Territoire des Loups
    ----------------------------------------------------------------------------------6/10-------
    14 / Légendes Vivantes (caméo)
    15 / Les Veuves
    16 / Darkman
    17 / Love Actually
    18 / Ted 2 (caméo)
    19 / Non-Stop
    20 / The Passenger
    21 / Albert à l'Ouest
    22 / Kindgom of Heaven
    ----------------------------------------------------------------------------------5/10-------
    23 / Le Monde de Narnia : Chapitre 2 (voix)
    24 / Le Monde de Narnia : Chapitre 3 (voix) ✔
    25 / Sans Identité
    26 / Men in Black : International
    27 / Le Choc des Titans
    28 / La Colère des Titans ✔
    29 / L'Agence tous risques
    ----------------------------------------------------------------------------------4/10-------
    30 / Taken 2
    ----------------------------------------------------------------------------------3/10-------
    31 / Taken 3

    http://www.senscritique.com/top/Les_meilleurs_films_avec_Liam_Neeson/999420
  • 11 Photo Tom Cruise

    Tom Cruise

    acteur, producteur, scénariste et artiste musical

    Moyenne : 6,87/10
    ----------------------------------------------------------------------------------8/10-------
    1 / Entretien avec un vampire
    2 / Mission : Impossible - Fallout ✔
    3 / Mission : Impossible - Rogue Nation ✔
    4 / Magnolia
    5 / Top Gun: Maverick ✔
    6 / Rain Man
    7 / La Guerre des mondes
    8 / Collateral
    9 / Minority Report
    10 / Barry Seal : American Traffic
    ----------------------------------------------------------------------------------7/10-------
    11 / Edge of Tomorrow
    12 / Eyes Wide Shut
    13 / Tonnerre sous les tropiques
    14 / Mission : Impossible
    15 / Walkyrie
    16 / Le Dernier Samouraï
    17 / Mission : Impossible - Protocole fantôme
    18 / Mission : Impossible III
    19 / Vanilla Sky
    20 / Outsiders
    21 / Jerry Maguire
    22 / Né un 4 Juillet
    ----------------------------------------------------------------------------------6/10-------
    23 / La Firme
    24 / Top Gun
    25 / Mission : Impossible 2
    26 / Jack Reacher
    27 / Oblivion
    ----------------------------------------------------------------------------------5/10-------
    28 / Legend
    29 / Jours de tonnerre
    30 / La Momie
    ----------------------------------------------------------------------------------4/10-------
    31 / Rock Forever

    http://www.senscritique.com/top/Les_meilleurs_films_avec_Tom_Cruise/999026
  • 12 Photo Woody Harrelson

    Woody Harrelson

    acteur, réalisateur, scénariste et producteur

    Moyenne : 6,4/10
    ---------------------------------------------------------------------------------9/10------
    1 / True Detective : Saison 1 (Série)
    2 / No Country for Old Men
    ---------------------------------------------------------------------------------8/10------
    3 / La Ligne rouge
    4 / 3 Billboards, les panneaux de la vengeance ✔
    5 / Sans Filtre ✔
    6 / La Planète des Singes : Suprématie
    7 / Larry Flynt
    ---------------------------------------------------------------------------------7/10------
    8 / Bienvenue à Zombieland
    9 / Hunger Games : L'Embrasement ✔
    10 / 2012
    11 / Sept Vies
    12 / Les Brasiers de la Colère
    13 / Solo : A Star Wars Story
    ---------------------------------------------------------------------------------6/10------
    14 / Hunger Games : La Révolte, partie 2 ✔
    15 / Hunger Games
    16 / Retour à Zombieland
    17 / Hunger Games : La Révolte, partie 1✔
    18 / A Scanner Darkly
    19 / Midway
    20 / Defendor
    21 / Insaisissables
    22 / Transsiberian
    23 / Tueurs nés
    ---------------------------------------------------------------------------------5/10------
    24 / 7 psychopathes
    25 / En direct sur Ed TV
    26 / Triple 9
    27 / Self Control
    28 / Venom
    ---------------------------------------------------------------------------------4/10------
    29 / Insaisissables 2
    ----------------------------------------------------------------------------------3/10-------
    30 / Venom : Let There Be Carnage

    http://www.senscritique.com/top/Les_meilleurs_films_avec_Woody_Harrelson/1051170
  • 13 Photo Morgan Freeman

    Morgan Freeman

    acteur, producteur, réalisateur et artiste musical

    Moyenne : 6,57/10
    --------------------------------------------------------------------------------10/10------
    1 / Seven
    ----------------------------------------------------------------------------------9/10-------
    2 / The Dark Knight, le Chevalier noir
    3 / Les Evadés
    4 / Impitoyable
    ----------------------------------------------------------------------------------8/10-------
    5 / Batman Begins
    6 / The Dark Knight Rises ✔
    7 / Million Dollar Baby
    ----------------------------------------------------------------------------------7/10-------
    8 / Glory
    9 / Slevin
    10 / Invictus
    11 / Wanted : Choisis ton destin
    12 / Robin des bois, prince des voleurs
    13 / Bruce tout-puissant
    14 / Gone Baby Gone
    ----------------------------------------------------------------------------------6/10-------
    15 / Amistad
    16 / Ted 2
    17 / Sans plus attendre
    18 / Le Bûcher des vanités
    19 / Une vie inachevée
    20 / Oblivion
    21 / Danny the Dog
    22 / Insaisissables
    ----------------------------------------------------------------------------------5/10-------
    23 / Red
    24 / Lucy
    25 / Casse-Noisette et les Quatre Royaumes
    ----------------------------------------------------------------------------------4/10-------
    26 / Insaisissables 2
    27 / Deep Impact
    ----------------------------------------------------------------------------------3/10-------
    28 / Evan tout-puissant

    http://www.senscritique.com/top/Les_meilleurs_films_avec_Morgan_Freeman/999578
  • 14 Photo Tom Hanks

    Tom Hanks

    acteur, producteur, scénariste, réalisateur, créateur, auteur et artiste musical

    Moyenne : 6,86/10
    ----------------------------------------------------------------------------------9/10-------
    1 / Forrest Gump
    2 / Il faut sauver le soldat Ryan
    3 / Arrête-moi si tu peux
    ----------------------------------------------------------------------------------8/10-------
    4 / Cloud Atlas
    5 / Capitaine Phillips ✔
    6 / La Ligne verte
    7 / Seul au monde
    8 / Philadelphia
    9 / Les Sentiers de la perdition
    10 / Apollo 13
    11 / Le Terminal
    ----------------------------------------------------------------------------------7/10-------
    12 / Le Pont des Espions
    13 / Elvis ✔
    14 / Pentagon Papers ✔
    15 / Sully
    16 / Big
    17 / Finch
    ----------------------------------------------------------------------------------6/10-------
    18 / La Mission
    19 / Da Vinci Code
    20 / Le Bûcher des vanités
    21 / Dans l'ombre de Mary - La Promesse de Walt Disney
    22 / Ladykillers
    ----------------------------------------------------------------------------------5/10-------
    23 / Inferno
    24 / Vous avez un [email protected]
    25 / Nuits blanches à Seattle
    26 / USS Greyhound - La Bataille de l'Atlantique
    27 / Anges & Démons
    ----------------------------------------------------------------------------------4/10-------
    28 / Pinocchio

    http://www.senscritique.com/top/Les_meilleurs_films_avec_Tom_Hanks/999057
  • 15 Photo Christian Bale

    Christian Bale

    acteur, producteur et artiste musical

    Moyenne : 6,74/10
    ----------------------------------------------------------------------------------9/10-------
    1 / The Dark Knight, le Chevalier Noir
    2 / Le Prestige ✔
    ----------------------------------------------------------------------------------8/10-------
    3 / The Dark Knight Rises ✔
    4 / Batman Begins
    5 / Le Mans 66 ✔
    6 / The Big Short : Le Casse du siècle
    7 / Le Nouveau Monde
    8 / 3h10 pour Yuma
    ----------------------------------------------------------------------------------7/10-------
    9 / Vice
    10 / Hostiles
    11 / Exodus : Gods and Kings
    12 / American Psycho
    13 / Les Quatre Filles du docteur March
    14 / Les Brasiers de la Colère
    15 / L'Empire du Soleil
    ----------------------------------------------------------------------------------6/10-------
    16 / Sacrifices of War
    17 / Public Enemies
    18 / Le Règne du Feu
    19 / Mowgli : La Légende de la jungle (voix)
    20 / Fighter
    21 / American Bluff ✔
    22 / The Machinist
    23 / Equilibrium
    ----------------------------------------------------------------------------------5/10-------
    24 / Amsterdam
    25 / Terminator : Renaissance
    26 / Thor : Love and Thunder
    ----------------------------------------------------------------------------------4/10-------
    27 / Knight of Cups

    http://www.senscritique.com/top/Les_meilleurs_films_avec_Christian_Bale/999647
  • 16 Photo James Franco

    James Franco

    acteur, réalisateur, producteur, scénariste, créateur, auteur et préfacier

    Moyenne : 6,19/10
    ----------------------------------------------------------------------------------8/10-------
    1 / La Planète des singes : Les Origines ✔
    2 / Spider-Man 2
    3 / Spider-Man
    4 / 11.22.63 (Série)
    5 / The Deuce (Série)
    ----------------------------------------------------------------------------------7/10-------
    6 / Freaks and Geeks (Série)
    7 / The Disaster Artist
    8 / An American Crime
    9 / Spider-Man 3
    10 / C'est la fin
    11 / La Ballade de Buster Scruggs
    12 / The Iceman
    13 / Harvey Milk
    14 / 127 Heures
    ---------------------------------------------------------------------------------6/10--------
    15 / The Green Hornet ✔
    16 / L'Interview qui tue !
    17 / True Story
    18 / Le Monde fantastique d'Oz
    19 / Palo Alto
    20 / The Holiday (caméo)
    ----------------------------------------------------------------------------------5/10-------
    21 / Mange, Prie, Aime
    22 / Délire Express
    23 / Votre Majesté
    24 / Homefront ✔
    25 / Every Thing will be Fine
    26 / Spring Breakers ✔
    ----------------------------------------------------------------------------------3/10-------
    27 / Alien : Covenant (caméo) ✔

    http://www.senscritique.com/top/Les_meilleurs_films_avec_James_Franco/999439
  • 17 Photo Anthony Hopkins

    Anthony Hopkins

    acteur, producteur, réalisateur et scénariste

    Moyenne : 6,54/10
    ----------------------------------------------------------------------------------9/10-------
    1 / Le Silence des agneaux
    ----------------------------------------------------------------------------------8/10-------
    2 / The Father
    3 / Westworld (Série)
    4 / Elephant Man
    ---------------------------------------------------------------------------------7/10-------
    5 / Dracula
    6 / Armageddon Time ✔
    7 / Chaplin
    8 / Les Deux Papes
    9 / Hannibal
    10 / Dragon rouge
    11 / La Légende de Beowulf
    12 / Thor : Ragnarok
    13 / Les Vestiges du jour
    14 / Légendes d'Automne
    15 / Alexandre
    ----------------------------------------------------------------------------------6/10-------
    16 / Mission : Impossible 2
    17 / Rencontre avec Joe Black
    18 / Amistad
    19 / Le Masque de Zorro
    20 / La Faille
    21 / Retour à Howards End
    22 / Thor : Le Monde des ténèbres ✔
    ----------------------------------------------------------------------------------5/10-------
    23 / Thor ✔
    24 / Prémonitions
    25 / Noé
    ----------------------------------------------------------------------------------3/10-------
    26 / Transformers : The Last Knight

    http://www.senscritique.com/top/Les_meilleurs_films_avec_Anthony_Hopkins/999630
  • 18 Photo Colin Farrell

    Colin Farrell

    acteur, producteur et artiste musical

    Moyenne : 6,62/10
    ----------------------------------------------------------------------------------8/10-------
    1 / Bons baisers de Bruges
    2 / The Batman ✔
    3 / Minority Report
    4 / Le Nouveau Monde
    5 / The North Water (Série)
    6 / The Gentlemen ✔
    7 / Miami Vice, deux flics à Miami
    8 / Treize vies
    ----------------------------------------------------------------------------------7/10-------
    9 / Phone Game
    10 / The Lobster
    11 / Les Animaux fantastiques ✔
    12 / Le Rêve de Cassandre
    13 / True Detective : Saison 2 (Série)
    14 / Mise à mort du cerf sacré
    15 / Alexandre
    16 / Les Chemins de la liberté ✔
    ----------------------------------------------------------------------------------6/10-------
    17 / Les Veuves
    18 / Dumbo
    19 / Comment tuer son Boss
    20 / L'Imaginarium du Docteur Parnassus
    21 / Dans l'ombre de Mary - La Promesse de Walt Disney
    ----------------------------------------------------------------------------------5/10-------
    22 / 7 psychopathes
    23 / Prémonitions
    24 / Total Recall : Mémoires programmées ✔
    ----------------------------------------------------------------------------------4/10-------
    25 / Daredevil
    ----------------------------------------------------------------------------------3/10-------
    26 / Artemis Fowl

    http://www.senscritique.com/top/Les_meilleurs_films_avec_Colin_Farrell/999149
  • 19 Photo Harrison Ford

    Harrison Ford

    acteur et producteur

    Moyenne : 6,85/10
    ----------------------------------------------------------------------------------9/10-------
    1 / Blade Runner ✔
    2 / Blade Runner 2049 ✔
    ----------------------------------------------------------------------------------8/10-------
    3 / Apocalypse Now
    4 / Star Wars : Épisode V - L'Empire contre-attaque
    5 / Star Wars : Épisode VI - Le Retour du Jedi
    6 / Indiana Jones et la Dernière Croisade
    7 / Les Aventuriers de l'arche perdue
    8 / Star Wars : Épisode IV - Un nouvel espoir
    9 / Indiana Jones et le Temple maudit
    ----------------------------------------------------------------------------------7/10-------
    10 / Mosquito Coast
    11 / L'Appel de la Forêt ✔
    12 / Star Wars : Le Réveil de la Force
    13 / Conversation secrète
    14 / Le Fugitif
    15 / American Graffiti
    16 / Adaline
    ----------------------------------------------------------------------------------6/10-------
    17 / Star Wars : L'Ascension de Skywalker ✔
    18 / Légendes Vivantes
    19 / L'Ouragan vient de Navarone
    20 / La Stratégie Ender
    21 / Ennemis Rapprochés
    22 / Indiana Jones et le Royaume du crâne de cristal
    23 / Apparences
    ----------------------------------------------------------------------------------5/10-------
    24 / Cowboys & Envahisseurs
    ----------------------------------------------------------------------------------4/10-------
    25 / 6 jours 7 nuits
    26 / Air Force One

    http://www.senscritique.com/top/Les_meilleurs_films_avec_Harrison_Ford/999668
  • 20 Photo Hugh Jackman

    Hugh Jackman

    acteur, producteur, artiste musical et préfacier

    Moyenne : 6,23/10
    ----------------------------------------------------------------------------------9/10-------
    1 / Le Prestige ✔
    ----------------------------------------------------------------------------------8/10-------
    2 / X-Men : Days of Future Past ✔
    3 / Prisoners
    4 / X-Men : Le Commencement ✔
    ----------------------------------------------------------------------------------7/10-------
    5 / Logan
    6 / Scoop
    7 / X-Men
    8 / X-Men 2
    9 / Wolverine : Le Combat de l'immortel ✔
    10 / Eddie the Eagle
    11 / The Fountain
    ----------------------------------------------------------------------------------6/10-------
    12 / The Front Runner
    13 / La Nuit au musée : Le Secret des Pharaons
    14 / X-Men : Apocalypse ✔
    15 / Real Steel
    16 / X-Men : L'Affrontement final
    17 / Chappie
    18 / Les Misérables
    ----------------------------------------------------------------------------------5/10-------
    19 / Australia
    20 / Pan
    21 / The Greatest Showman ✔
    22 / Reminiscence ✔
    23 / X-Men Origins : Wolverine
    24 / Opération Espadon
    25 / Van Helsing
    -----------------------------------------------------------------------------------3/10-------
    26 / My Movie Project

    http://www.senscritique.com/top/Les_meilleurs_films_avec_Hugh_Jackman/999397
  • 21 Photo Jim Carrey

    Jim Carrey

    acteur, producteur, scénariste, créateur, auteur, illustrateur et artiste musical

    Moyenne : 6,08/10
    --------------------------------------------------------------------------------10/10-------
    1 / The Truman Show
    2 / Eternal Sunshine of the Spotless Mind
    ----------------------------------------------------------------------------------8/10-------
    3 / Man on the Moon
    4 / The Majestic
    ----------------------------------------------------------------------------------7/10-------
    5 / The Mask
    6 / Disjoncté
    7 / Dumb and Dumber
    ----------------------------------------------------------------------------------6/10-------
    8 / Légendes Vivantes (caméo)
    9 / Kidding (Série)
    10 / Bruce Tout-Puissant
    11 / Dumb and Dumber De
    12 / Kick-Ass 2 ✔
    13 / Yes Man
    14 / Menteur, Menteur
    15 / Fous d'Irène
    16 / Peggy Sue s'est mariée
    17 / I Love you Phillip Morris
    18 / Pecan Pie (court-métrage)
    ----------------------------------------------------------------------------------5/10-------
    19 / Ace Ventura en Afrique
    20 / Sonic, le film
    21 / Mr Popper et ses pingouins
    22 / Ace Ventura, détective chiens et chats
    ----------------------------------------------------------------------------------4/10-------
    23 / Batman Forever
    24 / The Bad Batch
    ----------------------------------------------------------------------------------3/10-------
    25 / Objectif Terrienne
    ----------------------------------------------------------------------------------2/10-------
    26 / Le Nombre 23

    http://www.senscritique.com/top/Les_meilleurs_films_avec_Jim_Carrey/999370
  • 22 Photo Owen Wilson

    Owen Wilson

    acteur, producteur, scénariste, illustrateur et artiste musical

    Moyenne : 5,77/10
    --------------------------------------------------------------------------------7/10-------
    1 / The Grand Budapest Hotel
    2 / Disjoncté
    3 / La Famille Tenenbaum
    4 / Minuit à Paris
    5 / Tête brûlée
    6 / La Vie aquatique
    7 / The French Dispatch
    --------------------------------------------------------------------------------6/10-------
    8 / Serial Noceurs
    9 / À bord du Darjeeling Limited
    10 / Mon beau-père et moi
    11 / La Nuit au musée
    12 / ShanghaI Kid
    13 / La Nuit au musée : Le Secret des Pharaons
    14 / Inherent Vice
    15 / Mon beau-père, mes parents et moi
    16 / Armageddon
    --------------------------------------------------------------------------------5/10-------
    17 / Shanghaï Kid 2
    18 / Mon beau-père et nous
    19 / Le tour du monde en 80 jours
    20 / Zoolander
    21 / La Nuit au musée 2
    22 / Les Stagiaires
    23 / No Escape
    --------------------------------------------------------------------------------4/10-------
    24 / Espion et demi
    --------------------------------------------------------------------------------3/10-------
    25 / Zoolander 2
    --------------------------------------------------------------------------------2/10-------
    26 / Anaconda, le prédateur

    http://www.senscritique.com/top/Les_meilleurs_films_avec_Owen_Wilson/999153
  • 23 Photo Vincent Cassel

    Vincent Cassel

    acteur, producteur, réalisateur, scénariste et artiste musical

    Moyenne : 6,62/10
    ---------------------------------------------------------------------------------9/10------
    1 / La Haine
    ---------------------------------------------------------------------------------8/10------
    2 / Black Swan ✔
    3 / Mesrine : 1ère Partie - L'Instinct de mort
    4 / Mesrine : 2ème Partie - L'Ennemi public n°1
    5 / Le Monde est à toi ✔
    6 / Irréversible
    7 / Hors Normes
    8 / Sur mes lèvres
    ---------------------------------------------------------------------------------7/10------
    9 / Les Promesses de l'ombre
    10 / Juste la fin du monde
    11 / Mon Roi
    12 / Ocean's Twelve
    13 / Westworld : Saison 3 (Série)
    14 / Underwater
    15 / Elizabeth
    16 / Trance
    --------------------------------------------------------------------------------6/10------
    17 / Ocean's 13
    18 / Sheitan
    19 / Jeanne d'Arc
    20 / Un Moment d'égarement ✔
    21 / Enfant 44
    22 / Le Pacte des Loups
    ---------------------------------------------------------------------------------5/10------
    23 / A Dangerous Method
    24 / Jason Bourne
    ---------------------------------------------------------------------------------4/10------
    25 / Les Rivières pourpres
    ---------------------------------------------------------------------------------1/10------
    26 / Sa majesté Minor

    http://www.senscritique.com/top/Les_meilleurs_films_avec_Vincent_Cassel/999523
  • 24 Photo Bill Murray

    Bill Murray

    acteur, scénariste, producteur, réalisateur et artiste musical

    Moyenne : 6,48/10
    ----------------------------------------------------------------------------------8/10-------
    1 / Un jour sans fin ✔
    2 / Moonrise Kingdom
    ----------------------------------------------------------------------------------7/10-------
    3 / La Petite Boutique des Horreurs
    4 / The Grand Budapest Hotel
    5 / Bienvenue à Zombieland
    6 / Rushmore
    7 / S.O.S Fantômes
    8 / Toostsie
    9 / Le Livre de la jungle (voix) ✔
    10 / Ed Wood
    11 / Lost in Translation
    12 / La Famille Tenenbaum
    13 / La Vie aquatique
    14 / The French Dispatch ✔
    15 / Osmosis Jones
    ----------------------------------------------------------------------------------6/10-------
    16 / À bord du Darjeeling Limited
    17 / S.O.S. Fantômes - L'héritage ✔
    18 / Space Jam
    19 / Sexcrimes
    20 / S.O.S Fantômes 2
    ----------------------------------------------------------------------------------5/10-------
    21 / La Cité de l'ombre
    22 / The Dead Don't Die ✔
    23 / Max la menace
    ----------------------------------------------------------------------------------4/10-------
    24 / Monuments Men
    25 / Charlie et ses drôles de dames

    http://www.senscritique.com/top/Les_meilleurs_films_avec_Bill_Murray/999658
  • 25 Photo Benedict Cumberbatch

    Benedict Cumberbatch

    acteur, producteur et artiste musical

    Moyenne : 6,92/10
    ----------------------------------------------------------------------------------8/10-------
    1 / Reviens-moi
    2 / Avengers : Endgame ✔
    3 / Sherlock (Série)
    4 / Avengers : Infinity War ✔
    5 / Désigné coupable
    6 / 1917
    7 / Le Hobbit : Un Voyage inattendu (voix) ✔
    8 / Le Hobbit : La Désolation de Smaug (voix) ✔
    9 / Star Trek Into Darkness
    10 / 12 Years a Slave
    ----------------------------------------------------------------------------------7/10-------
    11 / Imitation Game
    12 / The Power of Dog
    13 / The Current War
    14 / Doctor Strange ✔
    15 / Thor : Ragnarok
    16 / Le Hobbit : La Bataille des cinq armées (voix) ✔
    17 / Cheval de guerre
    ----------------------------------------------------------------------------------6/10-------
    18 / Doctor Strange in the Multiverse of Madness ✔
    19 / Spider-Man: No Way Home ✔
    20 / Un espion ordinaire
    21 / Mowgli : La Légende de la jungle (voix)
    22 / We Are Four Lions
    23 / Deux Sœurs pour un roi
    ----------------------------------------------------------------------------------5/10-------
    24 / La Taupe
    ----------------------------------------------------------------------------------3/10-------
    25 / Zoolander 2 (caméo)

    http://www.senscritique.com/top/Les_meilleurs_films_avec_Benedict_Cumberbatch/1000512
  • 26 Photo Ewan McGregor

    Ewan McGregor

    acteur, réalisateur, producteur, auteur et artiste musical

    Moyenne : 6,8/10
    --------------------------------------------------------------------------------9/10-------
    1 / Trainspotting
    2 / Star Wars : Épisode III - La Revanche des Sith
    --------------------------------------------------------------------------------8/10-------
    3 / La Chute du faucon noir
    4 / Star Wars : Épisode I - La Menace fantôme
    5 / Big Fish
    6 / Perfect Sense
    --------------------------------------------------------------------------------7/10-------
    7 / The Impossible
    8 / Star Wars : Épisode II - L'Attaque des clones
    9 / Doctor Sleep ✔
    10 / Fargo : Saison 3 (Série)
    11 / T2 : Trainspotting
    12 / The Ghost Writer
    13 / Le Rêve de Cassandre
    14 / The Island
    15 / Une vie moins ordinaire
    --------------------------------------------------------------------------------6/10-------
    16 / Moulin Rouge !
    17 / Petits meurtres entre amis
    18 / Stay
    19 / I Love You Phillip Morris
    20 / La Belle et la Bête
    21 / Albert à l'Ouest
    --------------------------------------------------------------------------------5/10-------
    22 / Obi-Wan Kenobi (Série)
    23 / Birds of Prey (et la fantabuleuse histoire de Harley Quinn) ✔
    24 / Anges & Démons
    25 / Jack le chasseur de géants

    http://www.senscritique.com/top/Les_meilleurs_films_avec_Ewan_Mc_Gregor/999477
  • 27 Photo Jude Law

    Jude Law

    acteur, producteur, réalisateur et artiste musical

    Moyenne : 6,48/10
    ----------------------------------------------------------------------------------8/10-------
    1 / Stalingrad ✔
    2 / Bienvenue à Gattaca
    3 / Aviator
    4 / Sherlock Holmes : Jeu d'Ombres
    ----------------------------------------------------------------------------------7/10-------
    5 / The Grand Budapest Hotel
    6 / Le Talentueux Mr. Ripley
    7 / Sherlock Holmes
    8 / Retour à Cold Mountain
    9 / Les Sentiers de la Perdition
    10 / A.I. Intelligence Artificielle
    11 / Hugo Cabret
    12 / Anna Karénine
    13 / The Nest
    ----------------------------------------------------------------------------------6/10-------
    14 / Les Animaux fantastiques : Les Crimes de Grindelwald ✔
    15 / Un jour de pluie à New-York ✔
    16 / Captain Marvel ✔
    17 / Le Roi Arthur : La Légende d'Excalibur
    18 / The Holiday
    19 / Closer, entre adultes consentants
    20 / L'Imaginarium du Docteur Parnassus
    21 / eXistenz
    ----------------------------------------------------------------------------------5/10-------
    22 / Contagion
    23 / My Blueberry Nights
    24 / Les Animaux fantastiques - Les Secrets de Dumbledore ✔
    25 / Spy

    http://www.senscritique.com/top/Les_meilleurs_films_avec_Jude_Law/999465
  • 28 Photo Mark Wahlberg

    Mark Wahlberg

    acteur, producteur, artiste musical et créateur

    Moyenne : 6,36/10
    ----------------------------------------------------------------------------------9/10-------
    1 / Les Infiltrés
    2 / Boogie Nights
    ----------------------------------------------------------------------------------8/10-------
    3 / Prisoners
    4 / La Nuit nous appartient
    5 / The Yards
    ----------------------------------------------------------------------------------7/10-------
    6 / Du sang et des larmes
    7 / The Basketball Diaries
    8 / No Pain No Gain ✔
    9 / Lovely Bones
    10 / Tout l'argent du monde
    ----------------------------------------------------------------------------------6/10-------
    11 / Fighter
    12 / Uncharted ✔
    13 / Shooter, tireur d'élite
    14 / La Planète des singes
    15 / Ted
    16 / Ted 2
    17 / Braquage à l'italienne
    18 / Very Bad Dads
    19 / Phénomènes
    20 / En Pleine tempête
    21 / 2 Guns
    ----------------------------------------------------------------------------------5/10-------
    22 / Transformers : L'Âge de l'extinction ✔
    23 / Very Bad Cops
    ----------------------------------------------------------------------------------3/10-------
    24 / Transformers : The Last Knight
    25 / Max Payne

    http://www.senscritique.com/top/Les_meilleurs_films_avec_Mark_Wahlberg/999467
  • 29 Photo Bradley Cooper

    Bradley Cooper

    acteur, producteur, réalisateur, scénariste et artiste musical

    Moyenne : 6,63/10
    ----------------------------------------------------------------------------------8/10-------
    1 / Licorice Pizza ✔
    2 / Nightmare Alley ✔
    3 / Avengers : Endgame (voix) ✔
    4 / Les Gardiens de la Galaxie (voix) ✔
    5 / Avengers : Infinity War (voix) ✔
    6 / The Place Beyond the Pines
    ----------------------------------------------------------------------------------7/10-------
    7 / A Star is Born
    8 / Les Gardiens de la Galaxie Vol. (voix) 2
    9 / 10 Cloverfield Lane (voix)
    10 / La Mule
    11 / Very Bad Trip
    12 / Happiness Therapy
    ----------------------------------------------------------------------------------6/10-------
    13 / War Dogs
    14 / American Sniper
    15 / Serial Noceurs
    16 / Limitless
    17 / Very Bad Trip 2 ✔
    18 / American Bluff ✔
    19 / Yes Man
    20 / Joy ✔
    ----------------------------------------------------------------------------------5/10-------
    21 / Thor : Love and Thunder ✔
    22 / À vif !
    23 / L'Agence tous risques
    24 / Very Bad Trip 3 ✔

    http://www.senscritique.com/top/Les_meilleurs_films_avec_Bradley_Cooper/999393
  • 30 Photo Gary Oldman

    Gary Oldman

    acteur, producteur, réalisateur, scénariste, auteur et artiste musical

    Moyenne : 7,08/10
    ----------------------------------------------------------------------------------9/10-------
    1 / The Dark Knight, le Chevalier Noir
    2 / Léon
    ----------------------------------------------------------------------------------8/10-------
    3 / La Planète des Singes : L'Affrontement
    4 / The Dark Knight Rises ✔
    5 / Batman Begins
    6 / Harry Potter et les Reliques de Mort : Partie 2 ✔
    7 / Le Cinquième Element
    8 / Harry Potter et la Coupe de Feu
    9 / Harry Potter et le Prisonnier d'Azkaban
    10 / True Romance
    11 / Des Hommes sans Loi
    12 / Les Heures sombres
    ----------------------------------------------------------------------------------7/10-------
    13 / Dracula
    14 / JFK
    15 / Harry Potter et l'Ordre du Phénix ✔
    16 / Hannibal
    ----------------------------------------------------------------------------------6/10-------
    17 / Mank
    18 / RoboCop
    19 / Enfant 44
    20 / Le Livre d'Eli
    21 / Hitman & Bodyguard
    ----------------------------------------------------------------------------------5/10-------
    22 / La Taupe
    ----------------------------------------------------------------------------------4/10-------
    23 / La Femme à la fenêtre
    24 / Air Force One

    http://www.senscritique.com/top/Les_meilleurs_films_avec_Gary_Oldman/999654