Top Réalisateurs 2.0

Avatar Nathan Rabillard Liste de

166 personnalités

par Nathan Rabillard

Classement des films par réalisateur, 5 films minimum par réalisateur. Ils sont classés selon le nombre de films visionnés. De plus les réalisateurs avec plus de 9 films sont classés dans un Top 25 selon la moyenne des films donnés.

✔ signifie que j'ai vu le film au cinéma (soit dans les meilleures conditions possibles)
Les % sont calculés en fonction des long-métrages de fiction seulement

Mes autres listes :
http://www.senscritique.com/liste/Grands_Acteurs_2_0/749121
https://www.senscritique.com/liste/Top_Actrices_2_0/1605223

Allemand : 3 / Américain : 89 / Anglais : 17 / Argentin : 1 / Australien : 4 / Autrichien : 1 / Belge : 1 / Canadien : 3 / Chinois : 1 / Coréen : 3 / Danois : 2 / Espagnol : 2 / Français : 18 / Hong-Kongais : 3 / Italien : 1 / Japonais : 4 / Mexicain : 3 / Néerlandais : 2 / Néo-Zélandais : 1 / Suédois : 2 / Taïwanais : 1

Top 25 Réalisateurs (à partir de 9 films):
1° - Quentin Tarantino .. (8,27/10)
2° - David Fincher ........ (7,91/10)
3° - Christopher Nolan . (7,83/10)
4° - Alfred Hitchcock . (7,8/10)
5° - Denis Villeneuve .. (7,67/10)
6° - Park Chan-wook . (7,64/10)
7° - Martin Scorsese .... (7,59/10)
8° - Danny Boyle ......... (7,46/10)
9° - Steven Spielberg ... (7,4/10)
10° - Clint Eastwood ...... (7,4/10)
11° - Peter Jackson ...... (7,36/10)
12° - Sidney Lumet ....... (7,33/10)
13° - Hayao Miyazaki ..... (7,27/10)
14° - Paul Thomas Anderson (7,22/10)
15° - Stanley Kubrick .... (7,2/10)

Flop 15 Réalisateurs
1° - Paul W.S Anderson ........ (4,4/10)
2° - Quentin Dupieux ........ (5,67/10)
3° - Michael Bay ................... (5,73/10)
4° - Kenneth Branagh ........... (5,82/10)
5° - Roland Emmerich ........... (6/10)
6° - Luc Besson .................... (6,08/10)
7° - Nicolas Winding Refn .... (6,11/10)
8° - Peter Farrely ................... (6,11/10)
9° - Robert Rodriguez ........... (6,17/10)
10° - M. Night Shyamalan ....... (6,18/10)
11° - Jean-Pierre Jeunet ......... (6,22/10)
12° - Tony Scott ...................... (6,25/10)
13° - Sion Sono ....................... (6,3/10)
14° - Jean-Jacques Annaud .. (6,36/10)
15° - Zack Snyder ................... (6,5/10)

Trier par : Tri par défaut
  • Tri par défaut
  • Derniers ajouts
  • Ordre alphabétique
Croissant
  • Croissant
  • Décroissant
  • 1 Photo Steven Spielberg

    Steven Spielberg

    producteur, réalisateur, acteur, scénariste, créateur, auteur et développeur

    Moyenne : 7,4/10 (35/35 - 100%)
    --------------------------------------------------------------------------------9/10-------
    1 / Jurassic Park ✔
    2 / La Liste de Schindler
    3 / Il faut sauver le soldat Ryan
    4 / Arrête-moi si tu peux
    5 / West Side Story ✔
    ---------------------------------------------------------------------------------8/10-------
    6 / Indiana Jones et la Dernière Croisade
    7 / Les Aventuriers de l'Arche Perdue
    8 / The Fabelmans ✔
    9 / La Guerre des mondes
    10 / Indiana Jones et le Temple maudit
    11 / Ready Player One ✔
    12 / Le Monde perdu : Jurassic Park
    13 / Minority Report
    14 / Les Aventures de Tintin : Le Secret de la Licorne ✔
    15 / Les Dents de la mer
    16 / Le Terminal
    17 / Munich
    ---------------------------------------------------------------------------------7/10-------
    18 / Duel
    19 / Rencontre du troisième type
    20 / E.T. l'extra-terrestre
    21 / Le Pont des Espions
    22 / Empire du Soleil
    23 / La Couleur Pourpre
    24 / Pentagon Papers ✔
    25 / A.I. Intelligence Artificielle
    26 / Hook ou la revanche du capitaine Crochet
    27 / Cheval de guerre
    28 / Sugarland Express
    ---------------------------------------------------------------------------------6/10-------
    29 / Indiana Jones et le Royaume du crâne de cristal
    30 / Lincoln
    31 / Amistad
    32 / Le BGG
    33 / Always - Pour toujours
    34 / La Quatrième Dimension
    ---------------------------------------------------------------------------------5/10-------
    35 / 1941

    http://www.senscritique.com/top/Les_meilleurs_films_de_Steven_Spielberg/686903
  • 2 Photo Ridley Scott

    Ridley Scott

    producteur, réalisateur, acteur, scénariste, créateur et auteur

    Moyenne : 6,58/10 (24/27 - 89%)
    ----------------------------------------------------------------------------------9/10-------
    1 / Alien : Le Huitième passager
    2 / Blade Runner
    3 / Gladiator
    4 / Thelma et Louise ✔
    ----------------------------------------------------------------------------------8/10-------
    5 / Le Dernier Duel ✔
    6 / La Chute du faucon noir
    7 / Seul sur Mars ✔
    ----------------------------------------------------------------------------------7/10-------
    8 / American Gangster
    9 / Exodus : Gods and Kings
    10 / Tout l'argent du monde
    11 / Les Associés
    12 / Les Duellistes
    13 / Hannibal
    14 / House of Gucci ✔
    ----------------------------------------------------------------------------------6/10-------
    15 / Prometheus ✔
    16 / Mensonges d'État
    17 / 1492 : Christophe Colomb
    18 / Kingdom of Heaven
    19 / Black Rain
    ----------------------------------------------------------------------------------5/10-------
    20 / Robin des Bois
    21 / Legend
    22 / Une grande année
    ----------------------------------------------------------------------------------4/10-------
    23 / Cartel
    ----------------------------------------------------------------------------------3/10-------
    24 / Alien : Covenant ✔

    http://www.senscritique.com/top/Les_meilleurs_films_de_Ridley_Scott/999350
  • 3 Photo Woody Allen

    Woody Allen

    acteur, scénariste, réalisateur, producteur, auteur, artiste musical et créateur

    Moyenne : 6,77/10 (22/50 - 44%)
    ----------------------------------------------------------------------------------9/10-------
    1 / Match Point ✔
    ----------------------------------------------------------------------------------8/10-------
    2 / Annie Hall
    3 / Zelig
    ----------------------------------------------------------------------------------7/10-------
    4 / Manhattan
    5 / Crimes et Délits
    6 / Scoop
    7 / Le Rêve de Cassandre
    8 / Meurtre mystérieux à Manhattan
    9 / Hannah et ses sœurs
    10 / Blue Jasmine
    11 / Magic in the Moonlight
    12 / La Rose pourpre du Caire
    13 / Café Society
    14 / Minuit à Paris
    ----------------------------------------------------------------------------------6/10-------
    15 / Un jour de pluie à New-York ✔
    16 / Vicky Cristina Barcelona
    17 / Guerre et Amour
    18 / Radio Days
    19 / Wonder Wheel
    20 / L'Homme Irrationnel
    21 / Whatever Works
    ----------------------------------------------------------------------------------5/10-------
    22 / Hollywood Ending

    https://www.senscritique.com/top/Les_meilleurs_films_de_Woody_Allen/1678332
  • 4 Photo Robert Zemeckis

    Robert Zemeckis

    producteur, réalisateur, scénariste, acteur, créateur et auteur

    Moyenne : 7/10 (21/21 - 100%)
    ----------------------------------------------------------------------------------9/10-------
    1 / Forrest Gump
    2 / Retour vers le futur 2 ✔
    3 / Retour vers le futur ✔
    ----------------------------------------------------------------------------------8/10-------
    4 / Qui veut la peau de Roger Rabbit
    5 / Seul au monde
    6 / Retour vers le futur 3 ✔
    7 / La mort vous va si bien
    ----------------------------------------------------------------------------------7/10-------
    8 / La Légende de Beowulf
    9 / Alliés
    10 / Contact
    11 / La Grosse Magouille
    12 / The Walk - Rêver plus haut
    13 / Flight
    14 / Crazy Day
    15 / Le Drôle de Noël de Scrooge
    ----------------------------------------------------------------------------------6/10-------
    16 / Bienvenue à Marwen
    17 / Apparences
    18 / Le Pôle Express
    19 / À la poursuite du Diamant Vert
    ----------------------------------------------------------------------------------4/10-------
    20 / Sacrées sorcières
    21 / Pinocchio

    http://www.senscritique.com/top/Les_meilleurs_films_de_Robert_Zemeckis/1125391
  • 5 Photo Tim Burton

    Tim Burton

    réalisateur, producteur, acteur, scénariste, auteur, illustrateur, préfacier et créateur

    Moyenne : 6,57/10 (21/21 - 100%)
    ---------------------------------------------------------------------------------8/10-------
    1 / Edward aux mains d'argent
    2 / Batman
    3 / Big Fish
    4 / Batman : Le Défi
    ---------------------------------------------------------------------------------7/10-------
    5 / Charlie et la Chocolaterie
    6 / Sweeney Todd, le diabolique barbier de Fleet Street
    7 / Ed Wood
    8 / Beetlejuice
    9 / Sleepy Hollow, la légende du cavalier sans tête
    10 / Frankenweenie
    11 / Vincent
    ---------------------------------------------------------------------------------6/10-------
    12 / La Planète des singes
    13 / Les Noces funèbres
    14 / Big Eyes
    15 / Frankeenweenie (1984)
    16 / Mars Attacks !
    17 / Pee-Wee Big Adventure
    18 / Dumbo
    ---------------------------------------------------------------------------------5/10-------
    19 / Miss Peregrine et les Enfants particuliers
    20 / Alice au pays des merveilles
    21 / Dark Shadows

    http://www.senscritique.com/top/Les_meilleurs_films_de_Tim_Burton/999336
  • 6 Photo Joel Coen

    Joel Coen

    scénariste, réalisateur, producteur, acteur et auteur

    Moyenne : 7,05/10 (20/20- 100%)
    ----------------------------------------------------------------------------------9/10-------
    1 / No Country for Old Men
    ----------------------------------------------------------------------------------8/10-------
    2 / O'Brother
    3 / Fargo
    4 / Arizona Junior
    5 / True Grit
    6 / Miller's Crossing
    7 / Barton Fink
    8 / The Big Lebowski ✔
    ----------------------------------------------------------------------------------7/10-------
    8 / The Big Lebowski ✔
    9 / Sang pour sang ✔
    10 / La Ballade de Buster Scruggs
    11 / Burn After Reading
    12 / The Barber, l'homme qui n'était pas là
    13 / Inside Llewyn Davis
    14 / Le Grand Saut
    ----------------------------------------------------------------------------------6/10-------
    15 / A Serious Man
    16 / Paris, je t'aime (film à sketches)
    17 / Intolérable Cruauté
    18 / Ladykillers
    ----------------------------------------------------------------------------------5/10-------
    19 / Ave, César !
    20 / Macbeth

    http://www.senscritique.com/top/Les_meilleurs_films_des_freres_Coen/1168617
  • 7 Photo Martin Scorsese

    Martin Scorsese

    acteur, producteur, réalisateur, scénariste, auteur, préfacier et créateur

    Moyenne : 7,59/10 (17/27 - 63%)
    ----------------------------------------------------------------------------------9/10-------
    1 / Les Affranchis
    2 / Le Loup de Wall Street ✔
    3 / Les Infiltrés
    4 / Shutter Island
    5 / Casino
    ----------------------------------------------------------------------------------8/10-------
    6 / Taxi Driver
    7 / Raging Bull
    8 / Gangs of New York
    9 / Aviator
    10 / La Valse des Pantins
    ----------------------------------------------------------------------------------7/10-------
    11 / The Irishman
    12 / Les Nerfs à vif
    13 / Hugo Cabret
    14 / Silence
    ----------------------------------------------------------------------------------6/10-------
    15 / Mean Streets
    16 / Le grand rasage (court-métrage)
    17 / À tombeau ouvert

    https://www.senscritique.com/top/Les_meilleurs_films_de_Martin_Scorsese/672220
  • 8 Photo Brian De Palma

    Brian De Palma

    réalisateur, scénariste, acteur, producteur et auteur

    Moyenne : 6,94/10 (16/29 - 55%)
    ---------------------------------------------------------------------------------10/10-------
    1 / L'Impasse ✔
    ----------------------------------------------------------------------------------9/10-------
    2 / Blow Out
    ----------------------------------------------------------------------------------8/10-------
    3 / Snake Eyes
    4 / Les Incorruptibles
    5 / Scarface
    6 / Outrages
    ----------------------------------------------------------------------------------7/10-------
    7 / Body Double
    8 / Mission : Impossible
    9 / Phantom of the Paradise
    10 / Le Dahlia Noir
    11 / Carrie au bal du diable ✔
    ----------------------------------------------------------------------------------6/10-------
    12 / Pulsions
    13 / Le Bûcher des vanités
    ----------------------------------------------------------------------------------5/10-------
    14 / Passion
    15 / Raising Cain Re-cut
    ----------------------------------------------------------------------------------3/10-------
    16 / Domino

    https://www.senscritique.com/top/Les_meilleurs_films_de_Brian_de_Palma/1568767
  • 9 Photo Clint Eastwood

    Clint Eastwood

    acteur, réalisateur, producteur et artiste musical

    Moyenne : 7,4/10 (15/38 - 39%)
    ----------------------------------------------------------------------------------9/10-------
    1 / Impitoyable
    ----------------------------------------------------------------------------------8/10-------
    2 / Gran Torino
    3 / Sur la route de Madison
    4 / Million Dollar Baby
    5 / Mystic River
    6 / Un monde parfait
    ----------------------------------------------------------------------------------7/10-------
    7 / Le cas Richard Jewell ✔
    8 / Sully
    9 / L'Échange
    10 / Pale Rider, le cavalier solitaire
    11 / La Mule
    12 / J. Edgar
    13 / Invictus
    14 / Space Cowboys
    ----------------------------------------------------------------------------------6/10-------
    15 / American Sniper

    http://www.senscritique.com/top/Les_meilleurs_films_de_Clint_Eastwood/999341
  • 10 Photo Michael Bay

    Michael Bay

    producteur, réalisateur, acteur et scénariste

    Moyenne : 5,73/10 (15/15 - 100%)
    ----------------------------------------------------------------------------------7/10-------
    1 / No Pain No Gain ✔
    2 / The Island
    3 / Pearl Harbor
    4 / 13 Hours
    ----------------------------------------------------------------------------------6/10-------
    5 / Transformers
    6 / Rock
    7 / Bad Boys
    8 / Transformers 3 : La Face cachée de la Lune
    9 / Bad Boys II
    10 / Armageddon
    ----------------------------------------------------------------------------------5/10-------
    11 / Ambulance
    12 / Transformers : L'Âge de l'extinction ✔
    13 / Transformers 2 : La Revanche
    ----------------------------------------------------------------------------------4/10-------
    14 / 6 Underground
    ----------------------------------------------------------------------------------3/10-------
    15 / Transformers : The Last Knight

    http://www.senscritique.com/top/Les_meilleurs_films_de_Michael_Bay/999313
  • 11 Photo Ethan Coen

    Ethan Coen

    scénariste, réalisateur, producteur, acteur et auteur

    Moyenne : 7/10 (14/14 - 100%)
    ----------------------------------------------------------------------------------9/10-------
    1 / No Country for Old Men
    ----------------------------------------------------------------------------------8/10-------
    2 / O'Brother
    3/ True Grit
    4 / Fargo
    5 / The Big Lebowski ✔
    ----------------------------------------------------------------------------------7/10-------
    6 / La Ballade de Buster Scruggs
    7 / Burn After Reading
    8 / The Barber, l'homme qui n'était pas là
    9 / Inside Llewyn Davis
    ----------------------------------------------------------------------------------6/10-------
    10 / A Serious Man
    11 / Paris, je t'aime (film à sketches)
    12 / Intolérable Cruauté
    13 / Ladykillers
    ----------------------------------------------------------------------------------5/10-------
    14 / Ave, César !

    http://www.senscritique.com/top/Les_meilleurs_films_des_freres_Coen/1168617
  • 12 Photo Jean-Jacques Annaud

    Jean-Jacques Annaud

    réalisateur, scénariste, acteur, producteur, auteur et créateur

    Moyenne : 6,36/10 (14/14 - 100%)
    ----------------------------------------------------------------------------------8/10-------
    1 / Le Nom de la rose
    2 / Stalingrad ✔
    ----------------------------------------------------------------------------------7/10-------
    3 / Or Noir
    4 / Coup de tête
    5 / Les Ailes du courage ✔
    6 / L'Ours
    7 / Sept ans au Tibet
    8 / La Guerre du feu
    9 / Deux Frères
    ----------------------------------------------------------------------------------6/10-------
    10 / Le Dernier Loup
    11 / L'Amant
    12 / Notre-Dame brûle ✔
    ----------------------------------------------------------------------------------5/10-------
    13 / La Victoire en chantant
    ----------------------------------------------------------------------------------1/10-------
    14 / Sa majesté Minor

    https://www.senscritique.com/top/Les_meilleurs_films_de_Jean_Jacques_Annaud/2645790
  • 13 Photo Luc Besson

    Luc Besson

    producteur, scénariste, réalisateur, acteur, auteur, préfacier, direction, créateur et artiste musical

    Moyenne : 6/10 (14/17 - 82%)
    ----------------------------------------------------------------------------------9/10-------
    1 / Léon
    ----------------------------------------------------------------------------------8/10-------
    2 / Le Cinquième Élément
    ----------------------------------------------------------------------------------7/10-------
    3 / Le Grand Bleu
    4 / Nikita
    5 / Arthur et les Minimoys ✔
    6 / Valérian et la Cité des Mille Planètes ✔
    ----------------------------------------------------------------------------------6/10-------
    7 / The Lady
    8 / Jeanne d'Arc
    ----------------------------------------------------------------------------------5/10-------
    9 / Malavita
    10 / Arthur et la Vengeance de Maltazard ✔
    11 / Lucy
    ----------------------------------------------------------------------------------4/10-------
    12 / Anna
    13 / Les Aventures extraordinaires d'Adèle Blanc-Sec
    14 / Arthur 3 : La Guerre des deux mondes

    https://www.senscritique.com/top/Les_meilleurs_films_de_Luc_Besson/1677926
  • 14 Photo Peter Jackson

    Peter Jackson

    réalisateur, scénariste, producteur, acteur, créateur et préfacier

    Moyenne : 7,36/10 (14/14 - 100%)
    ----------------------------------------------------------------------------------9/10-------
    1 / Le Seigneur des Anneaux : Le Retour du roi ✔
    2 /Le Seigneur des Anneaux : Les Deux Tours
    3 / Le Seigneur des Anneaux : La Communauté de l'anneau ✔
    4 / King Kong
    ----------------------------------------------------------------------------------8/10-------
    5 / Forgotten Silver
    6 / Braindead
    7 / Le Hobbit : Un Voyage inattendu ✔
    8 / Le Hobbit : La Désolation de Smaug ✔
    ----------------------------------------------------------------------------------7/10-------
    9 / Lovely Bones
    10 / Les Feebles
    ----------------------------------------------------------------------------------6/10-------
    11 / Créatures Célestes
    12 / Fantômes contre Fantômes
    13 / Le Hobbit : La Bataille des cinq armées ✔
    ----------------------------------------------------------------------------------3/10-------
    14 / Bad Taste

    http://www.senscritique.com/top/Les_meilleurs_films_de_Peter_Jackson/999634
  • 15 Photo Sam Raimi

    Sam Raimi

    producteur, réalisateur, acteur, scénariste et créateur

    Moyenne : 6,5/10 (14/16 - 88%)
    ----------------------------------------------------------------------------------8/10-------
    1 / Evil Dead 2
    2 / Spider-Man 2
    3 / Spider-Man
    ----------------------------------------------------------------------------------7/10-------
    4 / Un plan simple
    5 / Spider-Man 3
    6 / Evil Dead
    7 / Evil Dead 3 : L'Armée des ténèbres
    ----------------------------------------------------------------------------------6/10-------
    8 / Doctor Strange in the Multiverse of Madness ✔
    9 / Darkman
    10 / Le Monde fantastique d'Oz
    11 / Jusqu'en enfer
    12 / Mort ou Vif
    ----------------------------------------------------------------------------------5/10-------
    13 / Intuitions
    ----------------------------------------------------------------------------------4/10-------
    14 / Mort sur le gril

    https://www.senscritique.com/top/Les_meilleurs_films_de_Sam_Raimi/2552227
  • 16 Photo Danny Boyle

    Danny Boyle

    réalisateur, producteur, acteur, scénariste et créateur

    Moyenne : 7,46/10 (13/13 - 100%)
    ----------------------------------------------------------------------------------10/10------
    1 / Slumdog Millionaire
    ----------------------------------------------------------------------------------9/10-------
    2 / 28 jours plus tard
    3 / Trainspotting
    ----------------------------------------------------------------------------------8/10-------
    4 / Sunshine
    5 / La Plage
    ----------------------------------------------------------------------------------7/10-------
    6 / T2 : Trainspotting
    7 / Yesterday ✔
    8 / Steve Jobs
    9 / 127 Heures
    10 / Trance
    11 / Une vie moins ordinaire
    ----------------------------------------------------------------------------------6/10-------
    12 / Petits meurtres entre amis
    ----------------------------------------------------------------------------------6/10-------
    13 / Millions

    https://www.senscritique.com/top/Les_meilleurs_films_de_Danny_Boyle/1738002
  • 17 Photo Wes Anderson

    Wes Anderson

    réalisateur, scénariste, producteur, acteur, préfacier et auteur

    Moyenne : 7,08/10 (13/13 - 100%)
    ----------------------------------------------------------------------------------8/10-------
    1 / Fantastic Mr. Fox
    2 / Moonrise Kingdom
    3 / L'Île aux Chiens ✔
    ----------------------------------------------------------------------------------7/10-------
    4 / The Grand Budapest Hotel
    5 / Rushmore
    6 / Come Together (court-métrage)
    7 / Hôtel Chevalier (court-métrage)
    8 / La Famille Tenenbaum
    9 / Tête Brulée
    10 / La Vie aquatique
    11 / The French Dispatch ✔
    -----------------------------------------------------------------------------------6/10-------
    12 / À bord du Darjeeling Limited
    13 / Castello Cavalcanti (court-métrage)

    https://www.senscritique.com/top/Les_meilleurs_films_de_Wes_Anderson/2087665
  • 18 Photo Christopher Nolan

    Christopher Nolan

    réalisateur, producteur, scénariste, acteur et auteur

    Moyenne : 7,83/10 (12/12 - 100%)
    --------------------------------------------------------------------------------9/10-------
    1 / Interstellar ✔
    2 / The Dark Knight, le chevalier noir
    3 / Inception ✔
    4 / Le Prestige ✔
    ----------------------------------------------------------------------------------8/10-------
    5 / Batman Begins
    6 / Memento
    7 / The Dark Knight Rises ✔
    8 / Dunkerque ✔
    9 / Tenet ✔
    ----------------------------------------------------------------------------------7/10-------
    10 / Following, le suiveur
    ----------------------------------------------------------------------------------6/10-------
    11 / Insomnia
    ----------------------------------------------------------------------------------5/10-------
    12 / Doodlebug (court-métrage)

    https://www.senscritique.com/top/Les_meilleurs_films_de_Christopher_Nolan/682133
  • 19 Photo Michel Gondry

    Michel Gondry

    réalisateur, scénariste, acteur, producteur, auteur, dessinateur, créateur et artiste musical

    Moyenne : 6,92/10 (12/13 - 92%)
    ---------------------------------------------------------------------------------10/10-------
    1 / Eternal Sunshine of the Spotless Mind
    ----------------------------------------------------------------------------------8/10-------
    2 / The Work of Director Michel Gondry
    3 / La Science des rêves
    ----------------------------------------------------------------------------------7/10-------
    4 / Soyez sympas, rembobinez
    5 / L'Écume des jours
    6 / La Lettre (court-métrage)
    ----------------------------------------------------------------------------------6/10-------
    7 / Human Nature
    8 / Microbe & Gasoil ✔
    9 / The We and The I
    10 / The Green Hornet ✔
    11 / Détour
    12 / Pecan Pie (court-métrage)

    https://www.senscritique.com/top/Les_meilleurs_films_de_Michel_Gondry/1844946
  • 20 Photo Robert Rodriguez

    Robert Rodriguez

    réalisateur, producteur, scénariste, acteur, distributeur, créateur, artiste musical et auteur

    Moyenne : 6,17/10 (12/19 - 63%)
    ----------------------------------------------------------------------------------8/10-------
    1 / Sin City
    ----------------------------------------------------------------------------------7/10-------
    2 / Alita : Battle Angel ✔
    3 / Une Nuit en Enfer
    4 / Groom Service (film à sketches)
    5 / Planète Terreur
    6 / Machete
    ----------------------------------------------------------------------------------6/10-------
    7 / Desperado
    8 / Sin City : J'ai tué pour elle
    9 / Machete Kills
    ----------------------------------------------------------------------------------5/10-------
    10 / Desperado 2 : Il était une fois au Mexique
    11 / The Faculty
    ----------------------------------------------------------------------------------3/10-------
    12 / Spy Kids

    https://www.senscritique.com/top/Les_meilleurs_films_de_Robert_Rodriguez/2343400
  • 21 Photo Ron Howard

    Ron Howard

    producteur, acteur, réalisateur, scénariste, créateur et auteur

    Moyenne : 6,67/10 (12/27 - 44%)
    ----------------------------------------------------------------------------------9/10-------
    1 / Rush
    ----------------------------------------------------------------------------------8/10-------
    2 / De l'ombre à la lumière
    3 / Un homme d'exception
    4 / Apollo 13 ✔
    5 / Treize vies
    ----------------------------------------------------------------------------------6/10-----
    6 / Willow
    7 / Au coeur de l'océan
    8 / Solo : A Star Wars Story
    9 / Da Vinci Code
    ----------------------------------------------------------------------------------5/10-------
    10 / Inferno
    11 / En direct sur Ed TV
    12 / Anges & Démons

    https://www.senscritique.com/top/Les_meilleurs_films_de_Ron_Howard/2214308
  • 22 Photo David Fincher

    David Fincher

    réalisateur, producteur, acteur, créateur et auteur

    Moyenne : 7,91/10 (11/11 - 100%)
    --------------------------------------------------------------------------------10/10-------
    1 / Seven
    ----------------------------------------------------------------------------------9/10-------
    2 / Fight Club
    3 / Gone Girl ✔
    ----------------------------------------------------------------------------------8/10-------
    4 / L'Étrange Histoire de Benjamin Button ✔
    5 / Zodiac
    6 / Millénium : Les Hommes qui n'aimaient pas les femmes
    7 / The Social Network
    ----------------------------------------------------------------------------------7/10-------
    8 / Panic Room
    9 / The Game
    10 / Alien 3
    ----------------------------------------------------------------------------------6/10-------
    11 / Mank

    http://www.senscritique.com/top/Les_meilleurs_films_de_David_Fincher/999344
  • 23 Photo Hayao Miyazaki

    Hayao Miyazaki

    dessinateur, auteur, scénariste, réalisateur, acteur, producteur, illustrateur, créateur et artiste musical

    Moyenne : 7,27/10 (11/11 - 100%)
    ----------------------------------------------------------------------------------8/10-------
    1 / Princesse Mononoké
    2 / Le Château ambulant
    3 / Le Château dans le ciel ✔
    4 / Nausicaä de la vallée du vent ✔
    ----------------------------------------------------------------------------------7/10-------
    5 / Le Voyage de Chihiro
    6 / Porco Rosso
    7 / Le Château de Cagliostro
    8 / Mon voisin Totoro
    9 / Kiki la petite sorcière
    ----------------------------------------------------------------------------------6/10-------
    10 / Ponyo sur la Falaise
    11 / Le vent se lève

    https://www.senscritique.com/top/Les_meilleurs_films_de_Miyazaki/2010814
  • 24 Photo Kenneth Branagh

    Kenneth Branagh

    acteur, réalisateur, scénariste et producteur

    Moyenne : 5,82/10 (12/21 - 57%)
    ----------------------------------------------------------------------------------8/10-------
    1 / Hamlet
    ----------------------------------------------------------------------------------7/10-------
    2 / Beaucoup de bruit pour rien
    3 / Belfast ✔
    ----------------------------------------------------------------------------------6/10-------
    4 / Frankenstein
    5 / Mort sur le Nil ✔
    6 / Le Crime de l'Orient-Express
    7 / Cendrillon
    ----------------------------------------------------------------------------------5/10-------
    8 / Dead Again
    9 / Thor ✔
    10 / The Ryan Initiative
    ----------------------------------------------------------------------------------3/10-------
    11 / Artemis Fowl

    https://www.senscritique.com/top/Les_meilleurs_films_de_Kenneth_Branagh/3195474
  • 25 Photo Tony Scott

    Tony Scott

    producteur, réalisateur, acteur, scénariste et créateur

    Moyenne : 6,25/10 (12/15 - 80%)
    ----------------------------------------------------------------------------------8/10-------
    1 / True Romance ✔
    2 / Les Prédateurs ✔
    ----------------------------------------------------------------------------------7/10-------
    3 / Man on Fire
    4 / Le Dernier Samaritain
    5 / Ennemi d'état
    ----------------------------------------------------------------------------------6/10-------
    6 / Spy Game, jeu d'espions
    7 / Top Gun
    8 / Unstoppable
    ----------------------------------------------------------------------------------5/10-------
    9 / Jours de tonnerre
    10 / Le Fan
    11 / Domino
    12 / L'Attaque du Métro 123

    https://www.senscritique.com/top/les_meilleurs_films_de_tony_scott/3259251
  • 26 Photo M. Night Shyamalan

    M. Night Shyamalan

    scénariste, réalisateur, producteur, acteur et auteur

    Moyenne ; 6,18/10 (11/14 - 78%)
    ----------------------------------------------------------------------------------8/10-------
    1 / Incassable
    ----------------------------------------------------------------------------------7/10-------
    2 / Sixième Sens ✔
    3 / Split ✔
    4 / Glass ✔
    ----------------------------------------------------------------------------------6/10-------
    5 / Signes
    6 / Le Village
    7 / The Visit
    8 / Phénomènes
    ----------------------------------------------------------------------------------5/10-------
    9 / Old ✔
    10 / After Earth
    11 / Le Dernier Maître de l'air

    https://www.senscritique.com/top/Les_meilleurs_films_de_M_Night_Shyamalan/2722242
  • 27 Photo Oliver Stone

    Oliver Stone

    réalisateur, acteur, producteur, scénariste, auteur, créateur et artiste musical

    Moyenne : 6,91/10 (11/21 - 52%)
    ----------------------------------------------------------------------------------8/10-------
    1 / Platoon
    2 / JFK Revisited: Through The Looking Glass (documentaire) ✔
    ----------------------------------------------------------------------------------7/10-------
    3 / Snowden
    4 / Savages
    5 / JFK
    6 / Né un 4 Juillet
    7 / L'Enfer du Dimanche
    8 / The Doors
    9 / Alexandre
    ----------------------------------------------------------------------------------6/10-------
    10 / Tueurs Nés
    ----------------------------------------------------------------------------------5/10-------
    11 / World Trade Center

    https://www.senscritique.com/top/Les_meilleurs_films_d_Oliver_Stone/2455022
  • 28 Photo Park Chan-Wook

    Park Chan-Wook

    réalisateur, scénariste, producteur, acteur et créateur

    Moyenne : 7,64/10 (11/14 - 79%)
    ----------------------------------------------------------------------------------10/10------
    1 / Old Boy
    ----------------------------------------------------------------------------------9/10-------
    2 / Mademoiselle ✔
    3 / JSA (Joint Security Area)
    ----------------------------------------------------------------------------------8/10-------
    4 / The Little Drummer Girl (Série)
    5 / Decision to Leave
    6 / Thirst, ceci est mon sang ✔
    ----------------------------------------------------------------------------------7/10-------
    7 / Stoker
    8 / Le Jugement (court-métrage)
    ----------------------------------------------------------------------------------6/10-------
    9 / Sympathy for Mr. Vengeance
    10 / Je suis un cyborg
    11 / Lady Vengeance

    https://www.senscritique.com/top/les_meilleurs_films_de_park_chan_wook/3297402
  • 29 Photo Quentin Tarantino

    Quentin Tarantino

    acteur, producteur, réalisateur, scénariste, auteur, créateur et artiste musical

    Moyenne : 8,27/10 (11/11 - 100%)
    ----------------------------------------------------------------------------------9/10-------
    1 / Django Unchained
    2 / Les 8 Salopards ✔
    3 / Kill Bill : Volume 1
    4 / Kill Bill : Volume 2
    ----------------------------------------------------------------------------------8/10-------
    5 / Pulp Fiction
    6 / Inglourious Basterds
    7 / Once Upon a Time in... Hollywood
    8 / Boulevard de la mort
    9 / Reservoir Dogs
    10 / Jackie Brown
    11 / Groom Service (film à sketches)

    http://www.senscritique.com/top/Les_meilleurs_films_de_Quentin_Tarantino/1158127
  • 30 Photo Alfred Hitchcock

    Alfred Hitchcock

    réalisateur, acteur, producteur, scénariste, auteur, direction et créateur

    Moyenne : 7,8/10 (10/55 - 18%)
    ----------------------------------------------------------------------------------9/10-------
    1 / Psychose
    2 / Sueurs Froides
    ----------------------------------------------------------------------------------8/10-------
    3 / La Mort aux Trousses
    4 / Fenêtre sur cour
    5 / Rebecca
    6 / Les Enchaînés ✔
    ----------------------------------------------------------------------------------7/10-------
    7 / L'Inconnu du Nord-Express
    8 / Les Oiseaux
    9 / La Main au collet
    10 / Une femme disparaît

    https://www.senscritique.com/top/les_meilleurs_films_d_alfred_hitchcock/3297268